ISO-10303-21;
HEADER;
FILE_DESCRIPTION (( 'STEP AP203' ),
    '1' );
FILE_NAME ('89535K23_Multipurpose 304-304L Stainless Steel Rod.STEP',
    '2023-01-13T17:53:50',
    ( 'Administrator' ),
    ( 'Managed by Terraform' ),
    'SwSTEP 2.0',
    'SolidWorks 2017',
    '' );
FILE_SCHEMA (( 'CONFIG_CONTROL_DESIGN' ));
ENDSEC;

DATA;
#1 = DIRECTION ( 'NONE',  ( 0.0000000000000000000, 0.0000000000000000000, 1.000000000000000000 ) ) ;
#2 = DIRECTION ( 'NONE',  ( 0.0000000000000000000, 0.0000000000000000000, 1.000000000000000000 ) ) ;
#3 = ORIENTED_EDGE ( 'NONE', *, *, #28, .T. ) ;
#4 = APPROVAL_ROLE ( '' ) ;
#5 = FACE_OUTER_BOUND ( 'NONE', #10, .T. ) ;
#6 = DIRECTION ( 'NONE',  ( 0.0000000000000000000, 0.0000000000000000000, 1.000000000000000000 ) ) ;
#7 = DIRECTION ( 'NONE',  ( 1.000000000000000000, 0.0000000000000000000, -0.0000000000000000000 ) ) ;
#8 = LOCAL_TIME ( 11, 53, 50.00000000000000000, #30 ) ;
#9 = CIRCLE ( 'NONE', #101, 0.1875000000000000300 ) ;
#10 = EDGE_LOOP ( 'NONE', ( #88, #87 ) ) ;
#11 = VECTOR ( 'NONE', #137, 39.37007874015748100 ) ;
#12 = APPLICATION_PROTOCOL_DEFINITION ( 'international standard', 'config_control_design', 1994, #173 ) ;
#13 = VERTEX_POINT ( 'NONE', #130 ) ;
#14 = LINE ( 'NONE', #96, #11 ) ;
#15 = EDGE_CURVE ( 'NONE', #79, #168, #84, .T. ) ;
#16 = DIRECTION ( 'NONE',  ( -1.000000000000000000, 0.0000000000000000000, 0.0000000000000000000 ) ) ;
#17 = DIRECTION ( 'NONE',  ( -0.0000000000000000000, -0.0000000000000000000, -1.000000000000000000 ) ) ;
#18 = LOCAL_TIME ( 11, 53, 50.00000000000000000, #164 ) ;
#19 = CLOSED_SHELL ( 'NONE', ( #38, #175, #150, #122 ) ) ;
#20 = ORGANIZATION ( 'UNSPECIFIED', 'UNSPECIFIED', '' ) ;
#21 = DATE_AND_TIME ( #70, #24 ) ;
#22 = PERSON_AND_ORGANIZATION ( #170, #20 ) ;
#23 = CARTESIAN_POINT ( 'NONE',  ( -0.1875000000000000300, 0.0000000000000000000, -36.00000000000000000 ) ) ;
#24 = LOCAL_TIME ( 11, 53, 50.00000000000000000, #145 ) ;
#25 = DIRECTION ( 'NONE',  ( 1.000000000000000000, 0.0000000000000000000, 0.0000000000000000000 ) ) ;
#26 = DIRECTION ( 'NONE',  ( 1.000000000000000000, 0.0000000000000000000, 0.0000000000000000000 ) ) ;
#27 = DIRECTION ( 'NONE',  ( -1.000000000000000000, 0.0000000000000000000, 0.0000000000000000000 ) ) ;
#28 = EDGE_CURVE ( 'NONE', #57, #168, #141, .T. ) ;
#29 = PLANE ( 'NONE',  #177 ) ;
#30 = COORDINATED_UNIVERSAL_TIME_OFFSET ( 6, 0, .BEHIND. ) ;
#31 = APPROVAL ( #125, 'UNSPECIFIED' ) ;
#32 = AXIS2_PLACEMENT_3D ( 'NONE', #37, #120, #26 ) ;
#33 = APPROVAL_PERSON_ORGANIZATION ( #121, #142, #66 ) ;
#34 = CC_DESIGN_PERSON_AND_ORGANIZATION_ASSIGNMENT ( #104, #157, ( #159 ) ) ;
#35 = CALENDAR_DATE ( 2023, 13, 1 ) ;
#36 = ORIENTED_EDGE ( 'NONE', *, *, #83, .T. ) ;
#37 = CARTESIAN_POINT ( 'NONE',  ( 0.0000000000000000000, 0.0000000000000000000, 0.0000000000000000000 ) ) ;
#38 = ADVANCED_FACE ( 'NONE', ( #133 ), #53, .T. ) ;
#39 = DATE_AND_TIME ( #46, #18 ) ;
#40 = CC_DESIGN_APPROVAL ( #142, ( #159 ) ) ;
#41 = EDGE_CURVE ( 'NONE', #168, #79, #93, .T. ) ;
#42 = EDGE_CURVE ( 'NONE', #13, #57, #128, .T. ) ;
#43 = CARTESIAN_POINT ( 'NONE',  ( 0.0000000000000000000, 0.0000000000000000000, 36.00000000000000000 ) ) ;
#44 = DATE_AND_TIME ( #113, #136 ) ;
#45 = PERSON_AND_ORGANIZATION_ROLE ( 'creator' ) ;
#46 = CALENDAR_DATE ( 2023, 13, 1 ) ;
#47 = AXIS2_PLACEMENT_3D ( 'NONE', #52, #2, #112 ) ;
#48 = DIRECTION ( 'NONE',  ( 1.000000000000000000, 0.0000000000000000000, 0.0000000000000000000 ) ) ;
#49 = CARTESIAN_POINT ( 'NONE',  ( 0.0000000000000000000, 0.0000000000000000000, -36.00000000000000000 ) ) ;
#50 = CARTESIAN_POINT ( 'NONE',  ( 0.0000000000000000000, 0.0000000000000000000, 36.00000000000000000 ) ) ;
#51 = EDGE_LOOP ( 'NONE', ( #77, #3, #126, #64 ) ) ;
#52 = CARTESIAN_POINT ( 'NONE',  ( 0.0000000000000000000, 0.0000000000000000000, -36.00000000000000000 ) ) ;
#53 = CYLINDRICAL_SURFACE ( 'NONE', #55, 0.1875000000000000300 ) ;
#54 =( NAMED_UNIT ( * ) SI_UNIT ( $, .STERADIAN. ) SOLID_ANGLE_UNIT ( ) );
#55 = AXIS2_PLACEMENT_3D ( 'NONE', #43, #143, #27 ) ;
#56 = PERSON_AND_ORGANIZATION_ROLE ( 'design_owner' ) ;
#57 = VERTEX_POINT ( 'NONE', #94 ) ;
#58 = PERSON_AND_ORGANIZATION_ROLE ( 'design_supplier' ) ;
#59 = SECURITY_CLASSIFICATION_LEVEL ( 'unclassified' ) ;
#60 = AXIS2_PLACEMENT_3D ( 'NONE', #158, #1, #25 ) ;
#61 = CARTESIAN_POINT ( 'NONE',  ( 0.1875000000000000300, 2.296212748401287700E-017, 36.00000000000000000 ) ) ;
#62 = DIRECTION ( 'NONE',  ( 0.0000000000000000000, 0.0000000000000000000, 1.000000000000000000 ) ) ;
#63 = MANIFOLD_SOLID_BREP ( 'Boss-Extrude1', #19 ) ;
#64 = ORIENTED_EDGE ( 'NONE', *, *, #83, .F. ) ;
#65 = PRODUCT_RELATED_PRODUCT_CATEGORY ( 'detail', '', ( #118 ) ) ;
#66 = APPROVAL_ROLE ( '' ) ;
#67 = SHAPE_DEFINITION_REPRESENTATION ( #68, #176 ) ;
#68 = PRODUCT_DEFINITION_SHAPE ( 'NONE', 'NONE',  #153 ) ;
#69 = CC_DESIGN_DATE_AND_TIME_ASSIGNMENT ( #39, #110, ( #153 ) ) ;
#70 = CALENDAR_DATE ( 2023, 13, 1 ) ;
#71 = AXIS2_PLACEMENT_3D ( 'NONE', #111, #62, #134 ) ;
#72 = SECURITY_CLASSIFICATION ( '', '', #59 ) ;
#73 = ORIENTED_EDGE ( 'NONE', *, *, #42, .F. ) ;
#74 = CARTESIAN_POINT ( 'NONE',  ( 0.0000000000000000000, 0.0000000000000000000, 36.00000000000000000 ) ) ;
#75 = AXIS2_PLACEMENT_3D ( 'NONE', #74, #146, #152 ) ;
#76 = LOCAL_TIME ( 11, 53, 50.00000000000000000, #102 ) ;
#77 = ORIENTED_EDGE ( 'NONE', *, *, #103, .F. ) ;
#78 = DIMENSIONAL_EXPONENTS ( 1.000000000000000000, 0.0000000000000000000, 0.0000000000000000000, 0.0000000000000000000, 0.0000000000000000000, 0.0000000000000000000, 0.0000000000000000000 ) ;
#79 = VERTEX_POINT ( 'NONE', #23 ) ;
#80 = APPROVAL_STATUS ( 'not_yet_approved' ) ;
#81 = DATE_AND_TIME ( #105, #76 ) ;
#82 =( GEOMETRIC_REPRESENTATION_CONTEXT ( 3 ) GLOBAL_UNCERTAINTY_ASSIGNED_CONTEXT ( ( #89 ) ) GLOBAL_UNIT_ASSIGNED_CONTEXT ( ( #86, #140, #54 ) ) REPRESENTATION_CONTEXT ( 'NONE', 'WORKASPACE' ) );
#83 = EDGE_CURVE ( 'NONE', #13, #79, #14, .T. ) ;
#84 = CIRCLE ( 'NONE', #47, 0.1875000000000000300 ) ;
#85 = EDGE_LOOP ( 'NONE', ( #149, #155 ) ) ;
#86 =( CONVERSION_BASED_UNIT ( 'INCH', #139 ) LENGTH_UNIT ( ) NAMED_UNIT ( #78 ) );
#87 = ORIENTED_EDGE ( 'NONE', *, *, #103, .T. ) ;
#88 = ORIENTED_EDGE ( 'NONE', *, *, #42, .T. ) ;
#89 = UNCERTAINTY_MEASURE_WITH_UNIT (LENGTH_MEASURE( 1.000000000000000100E-005 ), #86, 'distance_accuracy_value', 'NONE');
#90 = APPROVAL_DATE_TIME ( #174, #160 ) ;
#91 = CC_DESIGN_APPROVAL ( #31, ( #72 ) ) ;
#92 = APPROVAL_STATUS ( 'not_yet_approved' ) ;
#93 = CIRCLE ( 'NONE', #60, 0.1875000000000000300 ) ;
#94 = CARTESIAN_POINT ( 'NONE',  ( 0.1875000000000000300, 2.296212748401287700E-017, 36.00000000000000000 ) ) ;
#95 = MECHANICAL_CONTEXT ( 'NONE', #108, 'mechanical' ) ;
#96 = CARTESIAN_POINT ( 'NONE',  ( -0.1875000000000000300, 0.0000000000000000000, 36.00000000000000000 ) ) ;
#97 = EDGE_LOOP ( 'NONE', ( #178, #73, #36, #129 ) ) ;
#98 = PERSON_AND_ORGANIZATION ( #170, #20 ) ;
#99 = FACE_OUTER_BOUND ( 'NONE', #85, .T. ) ;
#100 =( LENGTH_UNIT ( ) NAMED_UNIT ( * ) SI_UNIT ( $, .METRE. ) );
#101 = AXIS2_PLACEMENT_3D ( 'NONE', #50, #6, #48 ) ;
#102 = COORDINATED_UNIVERSAL_TIME_OFFSET ( 6, 0, .BEHIND. ) ;
#103 = EDGE_CURVE ( 'NONE', #57, #13, #9, .T. ) ;
#104 = PERSON_AND_ORGANIZATION ( #170, #20 ) ;
#105 = CALENDAR_DATE ( 2023, 13, 1 ) ;
#106 = DIRECTION ( 'NONE',  ( -0.0000000000000000000, -0.0000000000000000000, -1.000000000000000000 ) ) ;
#107 = APPROVAL_PERSON_ORGANIZATION ( #98, #31, #4 ) ;
#108 = APPLICATION_CONTEXT ( 'configuration controlled 3d designs of mechanical parts and assemblies' ) ;
#109 = PERSON_AND_ORGANIZATION ( #170, #20 ) ;
#110 = DATE_TIME_ROLE ( 'creation_date' ) ;
#111 = CARTESIAN_POINT ( 'NONE',  ( 0.0000000000000000000, 0.0000000000000000000, 36.00000000000000000 ) ) ;
#112 = DIRECTION ( 'NONE',  ( 1.000000000000000000, 0.0000000000000000000, 0.0000000000000000000 ) ) ;
#113 = CALENDAR_DATE ( 2023, 13, 1 ) ;
#114 = CC_DESIGN_PERSON_AND_ORGANIZATION_ASSIGNMENT ( #156, #45, ( #153 ) ) ;
#115 = DATE_TIME_ROLE ( 'classification_date' ) ;
#116 = AXIS2_PLACEMENT_3D ( 'NONE', #161, #106, #16 ) ;
#117 = PERSON_AND_ORGANIZATION ( #170, #20 ) ;
#118 = PRODUCT ( '89535K23_Multipurpose 304-304L Stainless Steel Rod', '89535K23_Multipurpose 304-304L Stainless Steel Rod', '', ( #95 ) ) ;
#119 = COORDINATED_UNIVERSAL_TIME_OFFSET ( 6, 0, .BEHIND. ) ;
#120 = DIRECTION ( 'NONE',  ( 0.0000000000000000000, 0.0000000000000000000, 1.000000000000000000 ) ) ;
#121 = PERSON_AND_ORGANIZATION ( #170, #20 ) ;
#122 = ADVANCED_FACE ( 'NONE', ( #99 ), #29, .F. ) ;
#123 = CC_DESIGN_PERSON_AND_ORGANIZATION_ASSIGNMENT ( #117, #58, ( #159 ) ) ;
#124 = APPROVAL_ROLE ( '' ) ;
#125 = APPROVAL_STATUS ( 'not_yet_approved' ) ;
#126 = ORIENTED_EDGE ( 'NONE', *, *, #41, .T. ) ;
#127 = APPROVAL_DATE_TIME ( #81, #31 ) ;
#128 = CIRCLE ( 'NONE', #71, 0.1875000000000000300 ) ;
#129 = ORIENTED_EDGE ( 'NONE', *, *, #15, .T. ) ;
#130 = CARTESIAN_POINT ( 'NONE',  ( -0.1875000000000000300, 0.0000000000000000000, 36.00000000000000000 ) ) ;
#131 = APPROVAL_PERSON_ORGANIZATION ( #22, #160, #124 ) ;
#132 = CC_DESIGN_APPROVAL ( #160, ( #153 ) ) ;
#133 = FACE_OUTER_BOUND ( 'NONE', #51, .T. ) ;
#134 = DIRECTION ( 'NONE',  ( 1.000000000000000000, 0.0000000000000000000, 0.0000000000000000000 ) ) ;
#135 = CC_DESIGN_PERSON_AND_ORGANIZATION_ASSIGNMENT ( #109, #56, ( #118 ) ) ;
#136 = LOCAL_TIME ( 11, 53, 50.00000000000000000, #119 ) ;
#137 = DIRECTION ( 'NONE',  ( -0.0000000000000000000, -0.0000000000000000000, -1.000000000000000000 ) ) ;
#138 = DESIGN_CONTEXT ( 'detailed design', #173, 'design' ) ;
#139 = LENGTH_MEASURE_WITH_UNIT ( LENGTH_MEASURE( 0.02539999999999999900 ), #100 );
#140 =( NAMED_UNIT ( * ) PLANE_ANGLE_UNIT ( ) SI_UNIT ( $, .RADIAN. ) );
#141 = LINE ( 'NONE', #61, #165 ) ;
#142 = APPROVAL ( #80, 'UNSPECIFIED' ) ;
#143 = DIRECTION ( 'NONE',  ( -0.0000000000000000000, -0.0000000000000000000, -1.000000000000000000 ) ) ;
#144 = FACE_OUTER_BOUND ( 'NONE', #97, .T. ) ;
#145 = COORDINATED_UNIVERSAL_TIME_OFFSET ( 6, 0, .BEHIND. ) ;
#146 = DIRECTION ( 'NONE',  ( 0.0000000000000000000, 0.0000000000000000000, 1.000000000000000000 ) ) ;
#147 = DIRECTION ( 'NONE',  ( 0.0000000000000000000, 0.0000000000000000000, 1.000000000000000000 ) ) ;
#148 = PLANE ( 'NONE',  #75 ) ;
#149 = ORIENTED_EDGE ( 'NONE', *, *, #15, .F. ) ;
#150 = ADVANCED_FACE ( 'NONE', ( #5 ), #148, .T. ) ;
#151 = CC_DESIGN_SECURITY_CLASSIFICATION ( #72, ( #159 ) ) ;
#152 = DIRECTION ( 'NONE',  ( 1.000000000000000000, 0.0000000000000000000, -0.0000000000000000000 ) ) ;
#153 = PRODUCT_DEFINITION ( 'UNKNOWN', '', #159, #138 ) ;
#154 = APPROVAL_DATE_TIME ( #21, #142 ) ;
#155 = ORIENTED_EDGE ( 'NONE', *, *, #41, .F. ) ;
#156 = PERSON_AND_ORGANIZATION ( #170, #20 ) ;
#157 = PERSON_AND_ORGANIZATION_ROLE ( 'creator' ) ;
#158 = CARTESIAN_POINT ( 'NONE',  ( 0.0000000000000000000, 0.0000000000000000000, -36.00000000000000000 ) ) ;
#159 = PRODUCT_DEFINITION_FORMATION_WITH_SPECIFIED_SOURCE ( 'ANY', '', #118, .NOT_KNOWN. ) ;
#160 = APPROVAL ( #92, 'UNSPECIFIED' ) ;
#161 = CARTESIAN_POINT ( 'NONE',  ( 0.0000000000000000000, 0.0000000000000000000, 36.00000000000000000 ) ) ;
#162 = APPLICATION_PROTOCOL_DEFINITION ( 'international standard', 'config_control_design', 1994, #108 ) ;
#163 = CC_DESIGN_DATE_AND_TIME_ASSIGNMENT ( #44, #115, ( #72 ) ) ;
#164 = COORDINATED_UNIVERSAL_TIME_OFFSET ( 6, 0, .BEHIND. ) ;
#165 = VECTOR ( 'NONE', #17, 39.37007874015748100 ) ;
#166 = CARTESIAN_POINT ( 'NONE',  ( 0.1875000000000000300, 2.296212748401287700E-017, -36.00000000000000000 ) ) ;
#167 = PERSON_AND_ORGANIZATION_ROLE ( 'classification_officer' ) ;
#168 = VERTEX_POINT ( 'NONE', #166 ) ;
#169 = PERSON_AND_ORGANIZATION ( #170, #20 ) ;
#170 = PERSON ( 'UNSPECIFIED', 'UNSPECIFIED', 'UNSPECIFIED', ('UNSPECIFIED'), ('UNSPECIFIED'), ('UNSPECIFIED') ) ;
#171 = CC_DESIGN_PERSON_AND_ORGANIZATION_ASSIGNMENT ( #169, #167, ( #72 ) ) ;
#172 = CYLINDRICAL_SURFACE ( 'NONE', #116, 0.1875000000000000300 ) ;
#173 = APPLICATION_CONTEXT ( 'configuration controlled 3d designs of mechanical parts and assemblies' ) ;
#174 = DATE_AND_TIME ( #35, #8 ) ;
#175 = ADVANCED_FACE ( 'NONE', ( #144 ), #172, .T. ) ;
#176 = ADVANCED_BREP_SHAPE_REPRESENTATION ( '89535K23_Multipurpose 304-304L Stainless Steel Rod', ( #63, #32 ), #82 ) ;
#177 = AXIS2_PLACEMENT_3D ( 'NONE', #49, #147, #7 ) ;
#178 = ORIENTED_EDGE ( 'NONE', *, *, #28, .F. ) ;
ENDSEC;
END-ISO-10303-21;
