ISO-10303-21;
HEADER;
FILE_DESCRIPTION (( 'STEP AP203' ),
    '1' );
FILE_NAME ('89535K25_Multipurpose 304-304L Stainless Steel Rod.STEP',
    '2023-01-13T17:54:33',
    ( 'Administrator' ),
    ( 'Managed by Terraform' ),
    'SwSTEP 2.0',
    'SolidWorks 2017',
    '' );
FILE_SCHEMA (( 'CONFIG_CONTROL_DESIGN' ));
ENDSEC;

DATA;
#1 = AXIS2_PLACEMENT_3D ( 'NONE', #19, #164, #166 ) ;
#2 = CARTESIAN_POINT ( 'NONE',  ( 0.0000000000000000000, 0.0000000000000000000, 36.00000000000000000 ) ) ;
#3 = CARTESIAN_POINT ( 'NONE',  ( -0.2500000000000000000, 0.0000000000000000000, 36.00000000000000000 ) ) ;
#4 = SECURITY_CLASSIFICATION_LEVEL ( 'unclassified' ) ;
#5 =( NAMED_UNIT ( * ) PLANE_ANGLE_UNIT ( ) SI_UNIT ( $, .RADIAN. ) );
#6 = APPROVAL_ROLE ( '' ) ;
#7 = EDGE_CURVE ( 'NONE', #161, #137, #130, .T. ) ;
#8 = ORGANIZATION ( 'UNSPECIFIED', 'UNSPECIFIED', '' ) ;
#9 =( CONVERSION_BASED_UNIT ( 'INCH', #31 ) LENGTH_UNIT ( ) NAMED_UNIT ( #72 ) );
#10 = CALENDAR_DATE ( 2023, 13, 1 ) ;
#11 = EDGE_LOOP ( 'NONE', ( #28, #92, #150, #133 ) ) ;
#12 = PRODUCT_DEFINITION_SHAPE ( 'NONE', 'NONE',  #64 ) ;
#13 = EDGE_CURVE ( 'NONE', #153, #161, #22, .T. ) ;
#14 = AXIS2_PLACEMENT_3D ( 'NONE', #90, #61, #56 ) ;
#15 = CALENDAR_DATE ( 2023, 13, 1 ) ;
#16 = MANIFOLD_SOLID_BREP ( 'Boss-Extrude1', #113 ) ;
#17 = EDGE_LOOP ( 'NONE', ( #141, #88 ) ) ;
#18 = ADVANCED_FACE ( 'NONE', ( #125 ), #155, .F. ) ;
#19 = CARTESIAN_POINT ( 'NONE',  ( 0.0000000000000000000, 0.0000000000000000000, 36.00000000000000000 ) ) ;
#20 = APPROVAL_PERSON_ORGANIZATION ( #177, #54, #39 ) ;
#21 = AXIS2_PLACEMENT_3D ( 'NONE', #2, #37, #168 ) ;
#22 = CIRCLE ( 'NONE', #21, 0.2500000000000000000 ) ;
#23 = DIRECTION ( 'NONE',  ( 0.0000000000000000000, 0.0000000000000000000, 1.000000000000000000 ) ) ;
#24 = EDGE_CURVE ( 'NONE', #58, #137, #33, .T. ) ;
#25 = CIRCLE ( 'NONE', #82, 0.2500000000000000000 ) ;
#26 = PERSON_AND_ORGANIZATION ( #83, #8 ) ;
#27 = PERSON_AND_ORGANIZATION_ROLE ( 'classification_officer' ) ;
#28 = ORIENTED_EDGE ( 'NONE', *, *, #50, .F. ) ;
#29 = CC_DESIGN_APPROVAL ( #149, ( #64 ) ) ;
#30 = DATE_AND_TIME ( #10, #47 ) ;
#31 = LENGTH_MEASURE_WITH_UNIT ( LENGTH_MEASURE( 0.02539999999999999900 ), #81 );
#32 = ADVANCED_FACE ( 'NONE', ( #143 ), #175, .T. ) ;
#33 = CIRCLE ( 'NONE', #117, 0.2500000000000000000 ) ;
#34 = CALENDAR_DATE ( 2023, 13, 1 ) ;
#35 = CARTESIAN_POINT ( 'NONE',  ( 0.2500000000000000000, 3.061616997868383000E-017, -36.00000000000000000 ) ) ;
#36 = DIRECTION ( 'NONE',  ( 0.0000000000000000000, 0.0000000000000000000, 1.000000000000000000 ) ) ;
#37 = DIRECTION ( 'NONE',  ( 0.0000000000000000000, 0.0000000000000000000, 1.000000000000000000 ) ) ;
#38 = DIRECTION ( 'NONE',  ( 1.000000000000000000, 0.0000000000000000000, 0.0000000000000000000 ) ) ;
#39 = APPROVAL_ROLE ( '' ) ;
#40 = COORDINATED_UNIVERSAL_TIME_OFFSET ( 6, 0, .BEHIND. ) ;
#41 =( GEOMETRIC_REPRESENTATION_CONTEXT ( 3 ) GLOBAL_UNCERTAINTY_ASSIGNED_CONTEXT ( ( #134 ) ) GLOBAL_UNIT_ASSIGNED_CONTEXT ( ( #9, #5, #66 ) ) REPRESENTATION_CONTEXT ( 'NONE', 'WORKASPACE' ) );
#42 = ORIENTED_EDGE ( 'NONE', *, *, #13, .F. ) ;
#43 = EDGE_LOOP ( 'NONE', ( #105, #52 ) ) ;
#44 = VECTOR ( 'NONE', #59, 39.37007874015748100 ) ;
#45 = CC_DESIGN_PERSON_AND_ORGANIZATION_ASSIGNMENT ( #73, #27, ( #69 ) ) ;
#46 = CARTESIAN_POINT ( 'NONE',  ( 0.0000000000000000000, 0.0000000000000000000, -36.00000000000000000 ) ) ;
#47 = LOCAL_TIME ( 11, 54, 33.00000000000000000, #124 ) ;
#48 = CARTESIAN_POINT ( 'NONE',  ( 0.0000000000000000000, 0.0000000000000000000, 36.00000000000000000 ) ) ;
#49 = AXIS2_PLACEMENT_3D ( 'NONE', #48, #116, #139 ) ;
#50 = EDGE_CURVE ( 'NONE', #153, #58, #114, .T. ) ;
#51 = PERSON_AND_ORGANIZATION ( #83, #8 ) ;
#52 = ORIENTED_EDGE ( 'NONE', *, *, #24, .F. ) ;
#53 = PRODUCT ( '89535K25_Multipurpose 304-304L Stainless Steel Rod', '89535K25_Multipurpose 304-304L Stainless Steel Rod', '', ( #174 ) ) ;
#54 = APPROVAL ( #79, 'UNSPECIFIED' ) ;
#55 = DATE_AND_TIME ( #104, #122 ) ;
#56 = DIRECTION ( 'NONE',  ( 1.000000000000000000, 0.0000000000000000000, 0.0000000000000000000 ) ) ;
#57 = DATE_AND_TIME ( #100, #136 ) ;
#58 = VERTEX_POINT ( 'NONE', #35 ) ;
#59 = DIRECTION ( 'NONE',  ( -0.0000000000000000000, -0.0000000000000000000, -1.000000000000000000 ) ) ;
#60 = CC_DESIGN_DATE_AND_TIME_ASSIGNMENT ( #57, #157, ( #64 ) ) ;
#61 = DIRECTION ( 'NONE',  ( 0.0000000000000000000, 0.0000000000000000000, 1.000000000000000000 ) ) ;
#62 = DIRECTION ( 'NONE',  ( 1.000000000000000000, 0.0000000000000000000, -0.0000000000000000000 ) ) ;
#63 = CARTESIAN_POINT ( 'NONE',  ( 0.0000000000000000000, 0.0000000000000000000, -36.00000000000000000 ) ) ;
#64 = PRODUCT_DEFINITION ( 'UNKNOWN', '', #71, #142 ) ;
#65 = SHAPE_DEFINITION_REPRESENTATION ( #12, #85 ) ;
#66 =( NAMED_UNIT ( * ) SI_UNIT ( $, .STERADIAN. ) SOLID_ANGLE_UNIT ( ) );
#67 = ORIENTED_EDGE ( 'NONE', *, *, #50, .T. ) ;
#68 = APPROVAL_STATUS ( 'not_yet_approved' ) ;
#69 = SECURITY_CLASSIFICATION ( '', '', #4 ) ;
#70 = LOCAL_TIME ( 11, 54, 33.00000000000000000, #108 ) ;
#71 = PRODUCT_DEFINITION_FORMATION_WITH_SPECIFIED_SOURCE ( 'ANY', '', #53, .NOT_KNOWN. ) ;
#72 = DIMENSIONAL_EXPONENTS ( 1.000000000000000000, 0.0000000000000000000, 0.0000000000000000000, 0.0000000000000000000, 0.0000000000000000000, 0.0000000000000000000, 0.0000000000000000000 ) ;
#73 = PERSON_AND_ORGANIZATION ( #83, #8 ) ;
#74 = CARTESIAN_POINT ( 'NONE',  ( -0.2500000000000000000, 0.0000000000000000000, -36.00000000000000000 ) ) ;
#75 = ORIENTED_EDGE ( 'NONE', *, *, #24, .T. ) ;
#76 = FACE_OUTER_BOUND ( 'NONE', #11, .T. ) ;
#77 = DIRECTION ( 'NONE',  ( 0.0000000000000000000, 0.0000000000000000000, 1.000000000000000000 ) ) ;
#78 = APPLICATION_CONTEXT ( 'configuration controlled 3d designs of mechanical parts and assemblies' ) ;
#79 = APPROVAL_STATUS ( 'not_yet_approved' ) ;
#80 = APPLICATION_PROTOCOL_DEFINITION ( 'international standard', 'config_control_design', 1994, #78 ) ;
#81 =( LENGTH_UNIT ( ) NAMED_UNIT ( * ) SI_UNIT ( $, .METRE. ) );
#82 = AXIS2_PLACEMENT_3D ( 'NONE', #119, #107, #38 ) ;
#83 = PERSON ( 'UNSPECIFIED', 'UNSPECIFIED', 'UNSPECIFIED', ('UNSPECIFIED'), ('UNSPECIFIED'), ('UNSPECIFIED') ) ;
#84 = CC_DESIGN_DATE_AND_TIME_ASSIGNMENT ( #55, #121, ( #69 ) ) ;
#85 = ADVANCED_BREP_SHAPE_REPRESENTATION ( '89535K25_Multipurpose 304-304L Stainless Steel Rod', ( #16, #102 ), #41 ) ;
#86 = CYLINDRICAL_SURFACE ( 'NONE', #1, 0.2500000000000000000 ) ;
#87 = APPROVAL_PERSON_ORGANIZATION ( #132, #149, #159 ) ;
#88 = ORIENTED_EDGE ( 'NONE', *, *, #13, .T. ) ;
#89 = CIRCLE ( 'NONE', #14, 0.2500000000000000000 ) ;
#90 = CARTESIAN_POINT ( 'NONE',  ( 0.0000000000000000000, 0.0000000000000000000, 36.00000000000000000 ) ) ;
#91 = APPROVAL_DATE_TIME ( #30, #149 ) ;
#92 = ORIENTED_EDGE ( 'NONE', *, *, #170, .F. ) ;
#93 = CARTESIAN_POINT ( 'NONE',  ( 0.2500000000000000000, 3.061616997868383000E-017, 36.00000000000000000 ) ) ;
#94 = APPROVAL_STATUS ( 'not_yet_approved' ) ;
#95 = DIRECTION ( 'NONE',  ( 0.0000000000000000000, 0.0000000000000000000, 1.000000000000000000 ) ) ;
#96 = DIRECTION ( 'NONE',  ( 1.000000000000000000, 0.0000000000000000000, 0.0000000000000000000 ) ) ;
#97 = PERSON_AND_ORGANIZATION ( #83, #8 ) ;
#98 = VECTOR ( 'NONE', #118, 39.37007874015748100 ) ;
#99 = PERSON_AND_ORGANIZATION_ROLE ( 'design_supplier' ) ;
#100 = CALENDAR_DATE ( 2023, 13, 1 ) ;
#101 = EDGE_LOOP ( 'NONE', ( #42, #67, #75, #123 ) ) ;
#102 = AXIS2_PLACEMENT_3D ( 'NONE', #172, #95, #96 ) ;
#103 = CC_DESIGN_APPROVAL ( #54, ( #69 ) ) ;
#104 = CALENDAR_DATE ( 2023, 13, 1 ) ;
#105 = ORIENTED_EDGE ( 'NONE', *, *, #146, .F. ) ;
#106 = DIRECTION ( 'NONE',  ( 1.000000000000000000, 0.0000000000000000000, -0.0000000000000000000 ) ) ;
#107 = DIRECTION ( 'NONE',  ( 0.0000000000000000000, 0.0000000000000000000, 1.000000000000000000 ) ) ;
#108 = COORDINATED_UNIVERSAL_TIME_OFFSET ( 6, 0, .BEHIND. ) ;
#109 = PERSON_AND_ORGANIZATION_ROLE ( 'creator' ) ;
#110 = CC_DESIGN_APPROVAL ( #112, ( #71 ) ) ;
#111 = PERSON_AND_ORGANIZATION ( #83, #8 ) ;
#112 = APPROVAL ( #94, 'UNSPECIFIED' ) ;
#113 = CLOSED_SHELL ( 'NONE', ( #32, #115, #178, #18 ) ) ;
#114 = LINE ( 'NONE', #93, #44 ) ;
#115 = ADVANCED_FACE ( 'NONE', ( #76 ), #86, .T. ) ;
#116 = DIRECTION ( 'NONE',  ( -0.0000000000000000000, -0.0000000000000000000, -1.000000000000000000 ) ) ;
#117 = AXIS2_PLACEMENT_3D ( 'NONE', #63, #23, #156 ) ;
#118 = DIRECTION ( 'NONE',  ( -0.0000000000000000000, -0.0000000000000000000, -1.000000000000000000 ) ) ;
#119 = CARTESIAN_POINT ( 'NONE',  ( 0.0000000000000000000, 0.0000000000000000000, -36.00000000000000000 ) ) ;
#120 = APPLICATION_PROTOCOL_DEFINITION ( 'international standard', 'config_control_design', 1994, #148 ) ;
#121 = DATE_TIME_ROLE ( 'classification_date' ) ;
#122 = LOCAL_TIME ( 11, 54, 33.00000000000000000, #40 ) ;
#123 = ORIENTED_EDGE ( 'NONE', *, *, #7, .F. ) ;
#124 = COORDINATED_UNIVERSAL_TIME_OFFSET ( 6, 0, .BEHIND. ) ;
#125 = FACE_OUTER_BOUND ( 'NONE', #43, .T. ) ;
#126 = CC_DESIGN_PERSON_AND_ORGANIZATION_ASSIGNMENT ( #97, #169, ( #53 ) ) ;
#127 = CC_DESIGN_PERSON_AND_ORGANIZATION_ASSIGNMENT ( #152, #99, ( #71 ) ) ;
#128 = FACE_OUTER_BOUND ( 'NONE', #17, .T. ) ;
#129 = LOCAL_TIME ( 11, 54, 33.00000000000000000, #147 ) ;
#130 = LINE ( 'NONE', #131, #98 ) ;
#131 = CARTESIAN_POINT ( 'NONE',  ( -0.2500000000000000000, 0.0000000000000000000, 36.00000000000000000 ) ) ;
#132 = PERSON_AND_ORGANIZATION ( #83, #8 ) ;
#133 = ORIENTED_EDGE ( 'NONE', *, *, #146, .T. ) ;
#134 = UNCERTAINTY_MEASURE_WITH_UNIT (LENGTH_MEASURE( 1.000000000000000100E-005 ), #9, 'distance_accuracy_value', 'NONE');
#135 = CC_DESIGN_SECURITY_CLASSIFICATION ( #69, ( #71 ) ) ;
#136 = LOCAL_TIME ( 11, 54, 33.00000000000000000, #151 ) ;
#137 = VERTEX_POINT ( 'NONE', #74 ) ;
#138 = DATE_AND_TIME ( #15, #129 ) ;
#139 = DIRECTION ( 'NONE',  ( -1.000000000000000000, 0.0000000000000000000, 0.0000000000000000000 ) ) ;
#140 = CARTESIAN_POINT ( 'NONE',  ( 0.0000000000000000000, 0.0000000000000000000, 36.00000000000000000 ) ) ;
#141 = ORIENTED_EDGE ( 'NONE', *, *, #170, .T. ) ;
#142 = DESIGN_CONTEXT ( 'detailed design', #78, 'design' ) ;
#143 = FACE_OUTER_BOUND ( 'NONE', #101, .T. ) ;
#144 = PRODUCT_RELATED_PRODUCT_CATEGORY ( 'detail', '', ( #53 ) ) ;
#145 = PERSON_AND_ORGANIZATION_ROLE ( 'creator' ) ;
#146 = EDGE_CURVE ( 'NONE', #137, #58, #25, .T. ) ;
#147 = COORDINATED_UNIVERSAL_TIME_OFFSET ( 6, 0, .BEHIND. ) ;
#148 = APPLICATION_CONTEXT ( 'configuration controlled 3d designs of mechanical parts and assemblies' ) ;
#149 = APPROVAL ( #68, 'UNSPECIFIED' ) ;
#150 = ORIENTED_EDGE ( 'NONE', *, *, #7, .T. ) ;
#151 = COORDINATED_UNIVERSAL_TIME_OFFSET ( 6, 0, .BEHIND. ) ;
#152 = PERSON_AND_ORGANIZATION ( #83, #8 ) ;
#153 = VERTEX_POINT ( 'NONE', #167 ) ;
#154 = PLANE ( 'NONE',  #163 ) ;
#155 = PLANE ( 'NONE',  #162 ) ;
#156 = DIRECTION ( 'NONE',  ( 1.000000000000000000, 0.0000000000000000000, 0.0000000000000000000 ) ) ;
#157 = DATE_TIME_ROLE ( 'creation_date' ) ;
#158 = DATE_AND_TIME ( #34, #70 ) ;
#159 = APPROVAL_ROLE ( '' ) ;
#160 = APPROVAL_DATE_TIME ( #138, #112 ) ;
#161 = VERTEX_POINT ( 'NONE', #3 ) ;
#162 = AXIS2_PLACEMENT_3D ( 'NONE', #46, #36, #106 ) ;
#163 = AXIS2_PLACEMENT_3D ( 'NONE', #140, #77, #62 ) ;
#164 = DIRECTION ( 'NONE',  ( -0.0000000000000000000, -0.0000000000000000000, -1.000000000000000000 ) ) ;
#165 = APPROVAL_PERSON_ORGANIZATION ( #26, #112, #6 ) ;
#166 = DIRECTION ( 'NONE',  ( -1.000000000000000000, 0.0000000000000000000, 0.0000000000000000000 ) ) ;
#167 = CARTESIAN_POINT ( 'NONE',  ( 0.2500000000000000000, 3.061616997868383000E-017, 36.00000000000000000 ) ) ;
#168 = DIRECTION ( 'NONE',  ( 1.000000000000000000, 0.0000000000000000000, 0.0000000000000000000 ) ) ;
#169 = PERSON_AND_ORGANIZATION_ROLE ( 'design_owner' ) ;
#170 = EDGE_CURVE ( 'NONE', #161, #153, #89, .T. ) ;
#171 = APPROVAL_DATE_TIME ( #158, #54 ) ;
#172 = CARTESIAN_POINT ( 'NONE',  ( 0.0000000000000000000, 0.0000000000000000000, 0.0000000000000000000 ) ) ;
#173 = CC_DESIGN_PERSON_AND_ORGANIZATION_ASSIGNMENT ( #51, #109, ( #64 ) ) ;
#174 = MECHANICAL_CONTEXT ( 'NONE', #148, 'mechanical' ) ;
#175 = CYLINDRICAL_SURFACE ( 'NONE', #49, 0.2500000000000000000 ) ;
#176 = CC_DESIGN_PERSON_AND_ORGANIZATION_ASSIGNMENT ( #111, #145, ( #71 ) ) ;
#177 = PERSON_AND_ORGANIZATION ( #83, #8 ) ;
#178 = ADVANCED_FACE ( 'NONE', ( #128 ), #154, .T. ) ;
ENDSEC;
END-ISO-10303-21;
