ISO-10303-21;
HEADER;
FILE_DESCRIPTION (( 'STEP AP203' ),
    '1' );
FILE_NAME ('89535K31_Multipurpose 304-304L Stainless Steel Rod.STEP',
    '2023-01-13T17:52:03',
    ( 'Administrator' ),
    ( 'Managed by Terraform' ),
    'SwSTEP 2.0',
    'SolidWorks 2017',
    '' );
FILE_SCHEMA (( 'CONFIG_CONTROL_DESIGN' ));
ENDSEC;

DATA;
#1 = VERTEX_POINT ( 'NONE', #118 ) ;
#2 = DIRECTION ( 'NONE',  ( 0.0000000000000000000, 0.0000000000000000000, 1.000000000000000000 ) ) ;
#3 = PERSON_AND_ORGANIZATION_ROLE ( 'creator' ) ;
#4 = CARTESIAN_POINT ( 'NONE',  ( -0.3125000000000000000, 0.0000000000000000000, 36.00000000000000000 ) ) ;
#5 = ORIENTED_EDGE ( 'NONE', *, *, #61, .T. ) ;
#6 = CARTESIAN_POINT ( 'NONE',  ( 0.0000000000000000000, 0.0000000000000000000, 36.00000000000000000 ) ) ;
#7 = DIRECTION ( 'NONE',  ( -0.0000000000000000000, -0.0000000000000000000, -1.000000000000000000 ) ) ;
#8 = ORIENTED_EDGE ( 'NONE', *, *, #61, .F. ) ;
#9 = CC_DESIGN_PERSON_AND_ORGANIZATION_ASSIGNMENT ( #97, #72, ( #122 ) ) ;
#10 = MANIFOLD_SOLID_BREP ( 'Boss-Extrude1', #165 ) ;
#11 = PERSON_AND_ORGANIZATION ( #150, #31 ) ;
#12 = EDGE_LOOP ( 'NONE', ( #156, #5 ) ) ;
#13 = DATE_AND_TIME ( #51, #89 ) ;
#14 = DIRECTION ( 'NONE',  ( 1.000000000000000000, 0.0000000000000000000, 0.0000000000000000000 ) ) ;
#15 = PRODUCT_DEFINITION_FORMATION_WITH_SPECIFIED_SOURCE ( 'ANY', '', #122, .NOT_KNOWN. ) ;
#16 = PERSON_AND_ORGANIZATION_ROLE ( 'design_supplier' ) ;
#17 = APPLICATION_PROTOCOL_DEFINITION ( 'international standard', 'config_control_design', 1994, #103 ) ;
#18 = PLANE ( 'NONE',  #26 ) ;
#19 = COORDINATED_UNIVERSAL_TIME_OFFSET ( 6, 0, .BEHIND. ) ;
#20 = CARTESIAN_POINT ( 'NONE',  ( 0.0000000000000000000, 0.0000000000000000000, 36.00000000000000000 ) ) ;
#21 = FACE_OUTER_BOUND ( 'NONE', #39, .T. ) ;
#22 = AXIS2_PLACEMENT_3D ( 'NONE', #46, #114, #44 ) ;
#23 = ORIENTED_EDGE ( 'NONE', *, *, #148, .T. ) ;
#24 = DIRECTION ( 'NONE',  ( 0.0000000000000000000, 0.0000000000000000000, 1.000000000000000000 ) ) ;
#25 = DATE_AND_TIME ( #123, #58 ) ;
#26 = AXIS2_PLACEMENT_3D ( 'NONE', #115, #71, #36 ) ;
#27 = ORIENTED_EDGE ( 'NONE', *, *, #148, .F. ) ;
#28 = CALENDAR_DATE ( 2023, 13, 1 ) ;
#29 = LINE ( 'NONE', #93, #95 ) ;
#30 = EDGE_CURVE ( 'NONE', #70, #53, #32, .T. ) ;
#31 = ORGANIZATION ( 'UNSPECIFIED', 'UNSPECIFIED', '' ) ;
#32 = CIRCLE ( 'NONE', #110, 0.3125000000000000000 ) ;
#33 = DIRECTION ( 'NONE',  ( -0.0000000000000000000, -0.0000000000000000000, -1.000000000000000000 ) ) ;
#34 =( LENGTH_UNIT ( ) NAMED_UNIT ( * ) SI_UNIT ( $, .METRE. ) );
#35 = DATE_TIME_ROLE ( 'creation_date' ) ;
#36 = DIRECTION ( 'NONE',  ( 1.000000000000000000, 0.0000000000000000000, -0.0000000000000000000 ) ) ;
#37 = CIRCLE ( 'NONE', #145, 0.3125000000000000000 ) ;
#38 = PERSON_AND_ORGANIZATION ( #150, #31 ) ;
#39 = EDGE_LOOP ( 'NONE', ( #91, #43, #77, #94 ) ) ;
#40 = EDGE_CURVE ( 'NONE', #149, #70, #29, .T. ) ;
#41 = CC_DESIGN_APPROVAL ( #119, ( #15 ) ) ;
#42 = CC_DESIGN_PERSON_AND_ORGANIZATION_ASSIGNMENT ( #54, #142, ( #80 ) ) ;
#43 = ORIENTED_EDGE ( 'NONE', *, *, #83, .F. ) ;
#44 = DIRECTION ( 'NONE',  ( 1.000000000000000000, 0.0000000000000000000, -0.0000000000000000000 ) ) ;
#45 = APPROVAL ( #64, 'UNSPECIFIED' ) ;
#46 = CARTESIAN_POINT ( 'NONE',  ( 0.0000000000000000000, 0.0000000000000000000, -36.00000000000000000 ) ) ;
#47 = ORIENTED_EDGE ( 'NONE', *, *, #104, .T. ) ;
#48 = PLANE ( 'NONE',  #22 ) ;
#49 = PERSON_AND_ORGANIZATION ( #150, #31 ) ;
#50 = ORIENTED_EDGE ( 'NONE', *, *, #30, .F. ) ;
#51 = CALENDAR_DATE ( 2023, 13, 1 ) ;
#52 = APPROVAL_PERSON_ORGANIZATION ( #171, #45, #175 ) ;
#53 = VERTEX_POINT ( 'NONE', #67 ) ;
#54 = PERSON_AND_ORGANIZATION ( #150, #31 ) ;
#55 = APPROVAL_STATUS ( 'not_yet_approved' ) ;
#56 = APPLICATION_PROTOCOL_DEFINITION ( 'international standard', 'config_control_design', 1994, #153 ) ;
#57 = CARTESIAN_POINT ( 'NONE',  ( 0.0000000000000000000, 0.0000000000000000000, 36.00000000000000000 ) ) ;
#58 = LOCAL_TIME ( 11, 52, 2.000000000000000000, #120 ) ;
#59 =( NAMED_UNIT ( * ) SI_UNIT ( $, .STERADIAN. ) SOLID_ANGLE_UNIT ( ) );
#60 = CIRCLE ( 'NONE', #81, 0.3125000000000000000 ) ;
#61 = EDGE_CURVE ( 'NONE', #1, #149, #37, .T. ) ;
#62 = ADVANCED_FACE ( 'NONE', ( #21 ), #133, .T. ) ;
#63 = LOCAL_TIME ( 11, 52, 2.000000000000000000, #177 ) ;
#64 = APPROVAL_STATUS ( 'not_yet_approved' ) ;
#65 = EDGE_LOOP ( 'NONE', ( #50, #27 ) ) ;
#66 = LOCAL_TIME ( 11, 52, 2.000000000000000000, #99 ) ;
#67 = CARTESIAN_POINT ( 'NONE',  ( 0.3125000000000000000, 3.827021247335478900E-017, -36.00000000000000000 ) ) ;
#68 = VECTOR ( 'NONE', #75, 39.37007874015748100 ) ;
#69 = FACE_OUTER_BOUND ( 'NONE', #88, .T. ) ;
#70 = VERTEX_POINT ( 'NONE', #152 ) ;
#71 = DIRECTION ( 'NONE',  ( 0.0000000000000000000, 0.0000000000000000000, 1.000000000000000000 ) ) ;
#72 = PERSON_AND_ORGANIZATION_ROLE ( 'design_owner' ) ;
#73 = DIRECTION ( 'NONE',  ( -1.000000000000000000, 0.0000000000000000000, 0.0000000000000000000 ) ) ;
#74 = AXIS2_PLACEMENT_3D ( 'NONE', #20, #7, #73 ) ;
#75 = DIRECTION ( 'NONE',  ( -0.0000000000000000000, -0.0000000000000000000, -1.000000000000000000 ) ) ;
#76 = LENGTH_MEASURE_WITH_UNIT ( LENGTH_MEASURE( 0.02539999999999999900 ), #34 );
#77 = ORIENTED_EDGE ( 'NONE', *, *, #40, .T. ) ;
#78 = AXIS2_PLACEMENT_3D ( 'NONE', #127, #158, #90 ) ;
#79 = CALENDAR_DATE ( 2023, 13, 1 ) ;
#80 = PRODUCT_DEFINITION ( 'UNKNOWN', '', #15, #109 ) ;
#81 = AXIS2_PLACEMENT_3D ( 'NONE', #6, #113, #14 ) ;
#82 = PERSON_AND_ORGANIZATION ( #150, #31 ) ;
#83 = EDGE_CURVE ( 'NONE', #149, #1, #60, .T. ) ;
#84 = LOCAL_TIME ( 11, 52, 2.000000000000000000, #146 ) ;
#85 = CARTESIAN_POINT ( 'NONE',  ( 0.3125000000000000000, 3.827021247335478900E-017, 36.00000000000000000 ) ) ;
#86 = APPROVAL_STATUS ( 'not_yet_approved' ) ;
#87 = DIMENSIONAL_EXPONENTS ( 1.000000000000000000, 0.0000000000000000000, 0.0000000000000000000, 0.0000000000000000000, 0.0000000000000000000, 0.0000000000000000000, 0.0000000000000000000 ) ;
#88 = EDGE_LOOP ( 'NONE', ( #8, #47, #23, #162 ) ) ;
#89 = LOCAL_TIME ( 11, 52, 2.000000000000000000, #19 ) ;
#90 = DIRECTION ( 'NONE',  ( 1.000000000000000000, 0.0000000000000000000, 0.0000000000000000000 ) ) ;
#91 = ORIENTED_EDGE ( 'NONE', *, *, #104, .F. ) ;
#92 = DATE_AND_TIME ( #137, #63 ) ;
#93 = CARTESIAN_POINT ( 'NONE',  ( -0.3125000000000000000, 0.0000000000000000000, 36.00000000000000000 ) ) ;
#94 = ORIENTED_EDGE ( 'NONE', *, *, #30, .T. ) ;
#95 = VECTOR ( 'NONE', #163, 39.37007874015748100 ) ;
#96 = CC_DESIGN_APPROVAL ( #106, ( #80 ) ) ;
#97 = PERSON_AND_ORGANIZATION ( #150, #31 ) ;
#98 = DIRECTION ( 'NONE',  ( 0.0000000000000000000, 0.0000000000000000000, 1.000000000000000000 ) ) ;
#99 = COORDINATED_UNIVERSAL_TIME_OFFSET ( 6, 0, .BEHIND. ) ;
#100 = DIRECTION ( 'NONE',  ( 1.000000000000000000, 0.0000000000000000000, 0.0000000000000000000 ) ) ;
#101 = AXIS2_PLACEMENT_3D ( 'NONE', #172, #2, #157 ) ;
#102 = CIRCLE ( 'NONE', #101, 0.3125000000000000000 ) ;
#103 = APPLICATION_CONTEXT ( 'configuration controlled 3d designs of mechanical parts and assemblies' ) ;
#104 = EDGE_CURVE ( 'NONE', #1, #53, #168, .T. ) ;
#105 = ADVANCED_FACE ( 'NONE', ( #69 ), #129, .T. ) ;
#106 = APPROVAL ( #55, 'UNSPECIFIED' ) ;
#107 = CARTESIAN_POINT ( 'NONE',  ( 0.0000000000000000000, 0.0000000000000000000, -36.00000000000000000 ) ) ;
#108 = UNCERTAINTY_MEASURE_WITH_UNIT (LENGTH_MEASURE( 1.000000000000000100E-005 ), #140, 'distance_accuracy_value', 'NONE');
#109 = DESIGN_CONTEXT ( 'detailed design', #103, 'design' ) ;
#110 = AXIS2_PLACEMENT_3D ( 'NONE', #107, #24, #147 ) ;
#111 = CC_DESIGN_DATE_AND_TIME_ASSIGNMENT ( #135, #174, ( #159 ) ) ;
#112 = CARTESIAN_POINT ( 'NONE',  ( 0.0000000000000000000, 0.0000000000000000000, 36.00000000000000000 ) ) ;
#113 = DIRECTION ( 'NONE',  ( 0.0000000000000000000, 0.0000000000000000000, 1.000000000000000000 ) ) ;
#114 = DIRECTION ( 'NONE',  ( 0.0000000000000000000, 0.0000000000000000000, 1.000000000000000000 ) ) ;
#115 = CARTESIAN_POINT ( 'NONE',  ( 0.0000000000000000000, 0.0000000000000000000, 36.00000000000000000 ) ) ;
#116 = MECHANICAL_CONTEXT ( 'NONE', #153, 'mechanical' ) ;
#117 = CC_DESIGN_PERSON_AND_ORGANIZATION_ASSIGNMENT ( #11, #16, ( #15 ) ) ;
#118 = CARTESIAN_POINT ( 'NONE',  ( 0.3125000000000000000, 3.827021247335478900E-017, 36.00000000000000000 ) ) ;
#119 = APPROVAL ( #86, 'UNSPECIFIED' ) ;
#120 = COORDINATED_UNIVERSAL_TIME_OFFSET ( 6, 0, .BEHIND. ) ;
#121 =( GEOMETRIC_REPRESENTATION_CONTEXT ( 3 ) GLOBAL_UNCERTAINTY_ASSIGNED_CONTEXT ( ( #108 ) ) GLOBAL_UNIT_ASSIGNED_CONTEXT ( ( #140, #143, #59 ) ) REPRESENTATION_CONTEXT ( 'NONE', 'WORKASPACE' ) );
#122 = PRODUCT ( '89535K31_Multipurpose 304-304L Stainless Steel Rod', '89535K31_Multipurpose 304-304L Stainless Steel Rod', '', ( #116 ) ) ;
#123 = CALENDAR_DATE ( 2023, 13, 1 ) ;
#124 = CC_DESIGN_PERSON_AND_ORGANIZATION_ASSIGNMENT ( #126, #125, ( #159 ) ) ;
#125 = PERSON_AND_ORGANIZATION_ROLE ( 'classification_officer' ) ;
#126 = PERSON_AND_ORGANIZATION ( #150, #31 ) ;
#127 = CARTESIAN_POINT ( 'NONE',  ( 0.0000000000000000000, 0.0000000000000000000, 0.0000000000000000000 ) ) ;
#128 = CC_DESIGN_PERSON_AND_ORGANIZATION_ASSIGNMENT ( #82, #3, ( #15 ) ) ;
#129 = CYLINDRICAL_SURFACE ( 'NONE', #178, 0.3125000000000000000 ) ;
#130 = CC_DESIGN_DATE_AND_TIME_ASSIGNMENT ( #25, #35, ( #80 ) ) ;
#131 = SHAPE_DEFINITION_REPRESENTATION ( #132, #144 ) ;
#132 = PRODUCT_DEFINITION_SHAPE ( 'NONE', 'NONE',  #80 ) ;
#133 = CYLINDRICAL_SURFACE ( 'NONE', #74, 0.3125000000000000000 ) ;
#134 = APPROVAL_PERSON_ORGANIZATION ( #38, #106, #170 ) ;
#135 = DATE_AND_TIME ( #79, #66 ) ;
#136 = FACE_OUTER_BOUND ( 'NONE', #65, .T. ) ;
#137 = CALENDAR_DATE ( 2023, 13, 1 ) ;
#138 = PRODUCT_RELATED_PRODUCT_CATEGORY ( 'detail', '', ( #122 ) ) ;
#139 = DATE_AND_TIME ( #28, #84 ) ;
#140 =( CONVERSION_BASED_UNIT ( 'INCH', #76 ) LENGTH_UNIT ( ) NAMED_UNIT ( #87 ) );
#141 = ADVANCED_FACE ( 'NONE', ( #136 ), #48, .F. ) ;
#142 = PERSON_AND_ORGANIZATION_ROLE ( 'creator' ) ;
#143 =( NAMED_UNIT ( * ) PLANE_ANGLE_UNIT ( ) SI_UNIT ( $, .RADIAN. ) );
#144 = ADVANCED_BREP_SHAPE_REPRESENTATION ( '89535K31_Multipurpose 304-304L Stainless Steel Rod', ( #10, #78 ), #121 ) ;
#145 = AXIS2_PLACEMENT_3D ( 'NONE', #112, #98, #100 ) ;
#146 = COORDINATED_UNIVERSAL_TIME_OFFSET ( 6, 0, .BEHIND. ) ;
#147 = DIRECTION ( 'NONE',  ( 1.000000000000000000, 0.0000000000000000000, 0.0000000000000000000 ) ) ;
#148 = EDGE_CURVE ( 'NONE', #53, #70, #102, .T. ) ;
#149 = VERTEX_POINT ( 'NONE', #4 ) ;
#150 = PERSON ( 'UNSPECIFIED', 'UNSPECIFIED', 'UNSPECIFIED', ('UNSPECIFIED'), ('UNSPECIFIED'), ('UNSPECIFIED') ) ;
#151 = CC_DESIGN_SECURITY_CLASSIFICATION ( #159, ( #15 ) ) ;
#152 = CARTESIAN_POINT ( 'NONE',  ( -0.3125000000000000000, 0.0000000000000000000, -36.00000000000000000 ) ) ;
#153 = APPLICATION_CONTEXT ( 'configuration controlled 3d designs of mechanical parts and assemblies' ) ;
#154 = ADVANCED_FACE ( 'NONE', ( #176 ), #18, .T. ) ;
#155 = APPROVAL_ROLE ( '' ) ;
#156 = ORIENTED_EDGE ( 'NONE', *, *, #83, .T. ) ;
#157 = DIRECTION ( 'NONE',  ( 1.000000000000000000, 0.0000000000000000000, 0.0000000000000000000 ) ) ;
#158 = DIRECTION ( 'NONE',  ( 0.0000000000000000000, 0.0000000000000000000, 1.000000000000000000 ) ) ;
#159 = SECURITY_CLASSIFICATION ( '', '', #173 ) ;
#160 = APPROVAL_DATE_TIME ( #13, #119 ) ;
#161 = APPROVAL_DATE_TIME ( #139, #45 ) ;
#162 = ORIENTED_EDGE ( 'NONE', *, *, #40, .F. ) ;
#163 = DIRECTION ( 'NONE',  ( -0.0000000000000000000, -0.0000000000000000000, -1.000000000000000000 ) ) ;
#164 = APPROVAL_DATE_TIME ( #92, #106 ) ;
#165 = CLOSED_SHELL ( 'NONE', ( #105, #62, #154, #141 ) ) ;
#166 = APPROVAL_PERSON_ORGANIZATION ( #49, #119, #155 ) ;
#167 = CC_DESIGN_APPROVAL ( #45, ( #159 ) ) ;
#168 = LINE ( 'NONE', #85, #68 ) ;
#169 = DIRECTION ( 'NONE',  ( -1.000000000000000000, 0.0000000000000000000, 0.0000000000000000000 ) ) ;
#170 = APPROVAL_ROLE ( '' ) ;
#171 = PERSON_AND_ORGANIZATION ( #150, #31 ) ;
#172 = CARTESIAN_POINT ( 'NONE',  ( 0.0000000000000000000, 0.0000000000000000000, -36.00000000000000000 ) ) ;
#173 = SECURITY_CLASSIFICATION_LEVEL ( 'unclassified' ) ;
#174 = DATE_TIME_ROLE ( 'classification_date' ) ;
#175 = APPROVAL_ROLE ( '' ) ;
#176 = FACE_OUTER_BOUND ( 'NONE', #12, .T. ) ;
#177 = COORDINATED_UNIVERSAL_TIME_OFFSET ( 6, 0, .BEHIND. ) ;
#178 = AXIS2_PLACEMENT_3D ( 'NONE', #57, #33, #169 ) ;
ENDSEC;
END-ISO-10303-21;
